TUTORIALES, TABS & CIFRADOS$type=grid$count=4$ico=1$cate=0$rm=0$sn=0$cm=0

Hillsong - I Believe (Cover guitar)

Esta vez es un cover de hillsong, i believe de la produccion de mighty to save, tambien hay una producción en español en donde esta canción tiene como nombre Creo en ti, espero que disfruten del video...


Bueno en este cover utilice un amplificador basado en el soldano SLO-100, en el pod tiene como nombre 1993 solo 100 head, tiene su respectivo pedal de efecto basado en el tube screamer, su ecualizador, reverb y delay.

Algo adicional sobre esta canción es su velocidad, es de 177 bpm, esto sirve para colocar los parametros del delay o tambien de un pedal de modulación si se desea usar.

A pedido de un amio pondré los acordes y tablaturas.

Empieza con lo siguientes se repite hasta el coro:

       G         D
E --------|--------|
B --------|--------|
G ---12---|---7---|
D ---12---|---7---|
A ---10---|---5---|
E --------|--------|

Luego el arreglo que va antes del coro es el siguiente

       G          A
E --------|---------|
B --------|---------|
G ---12---|---14---|
D --------|---------|
A ---10---|---12---|
E --------|---------|

Ahora la parte del coro:

      G        D       Em      D      C       G         D       Am     B     C
E -------|-------|-------|--------------|--------|-------|-------|--------------|
B -------|-------|-------|--------------|--------|-------|-------|--------------|
G -------|---7---|---9---|---7-----5---|-------|---7---|-------|--------------|
D ---5---|---7---|---9---|---7-----5---|---5---|---7---|---7---|---9----10---|
A ---5---|---5---|---7---|---5-----3---|---5---|---5---|---7---|---9----10---|
E ---3---|-------|-------|--------------|---3---|-------|---5---|---7-----8----|

La parte que termina el coro y va a empezar el verso por segunda vez va este acorde:

      G
E ---------
B ---------
G ---12---
D ---12---
A ---10---
E ---------

Se repite el verso y luego el coro, el arreglo que va antes del intermedio es el siguiente:

       Se repite 8 veces
G ----------------------------
D -----------------5-7-------
A ----7--7---5-7-------5----
E ----------------------------

Luego termina en el acorde G, el intermedio es de la siguiente forma:

                             Se repite 2 veces
E --------|--------|---------|--------|--------|---------|---------|
B --------|--------|---------|--------|---13---|---12---|---15---|
G ---12---|---11---|---14---|---12---|---13---|---12---|---15---|
D ---12---|---11---|---14---|---12---|---10---|----9----|---12---|
A ---10---|---9----|---12---|---10---|--------|---------|---------|
E ---------|--------|--------|--------|--------|----------|---------|

El final va de la siguiente forma:

             Se repite 2 veces
E ---------------------------------------------------------------------------
B ----------------------------------------13---12---13---12---13---12---
G ---12---11---12---11---12---11----------------------------------------
D ----------------------------------------10----9---10----9----10----9---
A ---10----9----10---9----10----9----------------------------------------
E ---------------------------------------------------------------------------

Comentarios, preguntas, las leere y respondere...

Esta vez es un cover de hillsong, i believe de la produccion de mighty to save, tambien hay una producción en español en donde esta canción...

COMENTARIOS

BLOGGER: 2
Loading...

$show=home

Nombre

amplificadores,3,Arpegios,1,Bateria,3,blues,2,Cifrados,25,Escalas,1,Jazz,2,Led Zeppelin,1,pedales,6,Review,14,Santana,2,Tabs,25,Tips,16,Tutoriales,51,
ltr
item
Seis Para Las Siete: Hillsong - I Believe (Cover guitar)
Hillsong - I Believe (Cover guitar)
Seis Para Las Siete
http://www.seisparalassiete.com/2009/12/hillsong-i-believe-cover-guitar.html
http://www.seisparalassiete.com/
http://www.seisparalassiete.com/
http://www.seisparalassiete.com/2009/12/hillsong-i-believe-cover-guitar.html
true
3660466807679395628
UTF-8
Cargando todas las entradas No se encontro ningun post VER TODO Mas Informacion Responder Cancelar respuesta Eliminar Por Home PAGINAS POSTS Mirar Todo RECOMENDADO PARA TI ETIQUETA ARCHIVOS BUSCAR TODOS LOS POSTS No se encontro ninguna coincidencia Volver a Home Sunday Monday Tuesday Wednesday Thursday Friday Saturday Sun Mon Tue Wed Thu Fri Sat January February March April May June July August September October November December Jan Feb Mar Apr May Jun Jul Aug Sep Oct Nov Dec just now 1 minute ago $$1$$ minutes ago 1 hour ago $$1$$ hours ago Yesterday $$1$$ days ago $$1$$ weeks ago more than 5 weeks ago Followers Follow THIS CONTENT IS PREMIUM Please share to unlock Copy All Code Select All Code All codes were copied to your clipboard Can not copy the codes / texts, please press [CTRL]+[C] (or CMD+C with Mac) to copy